  0
SECTION
  2
HEADER
  9
$ACADVER
  1
AC1015
  9
$ACADMAINTVER
 70
     6
  9
$DWGCODEPAGE
  3
ANSI_1254
  9
$INSBASE
 10
0.0
 20
0.0
 30
0.0
  9
$EXTMIN
 10
0.0
 20
0.0
 30
0.0
  9
$EXTMAX
 10
279.4
 20
215.9
 30
0.0
  9
$LIMMIN
 10
0.0
 20
0.0
  9
$LIMMAX
 10
279.4
 20
215.9
  9
$ORTHOMODE
 70
     0
  9
$REGENMODE
 70
     1
  9
$FILLMODE
 70
     1
  9
$QTEXTMODE
 70
     0
  9
$MIRRTEXT
 70
     1
  9
$LTSCALE
 40
1.0
  9
$ATTMODE
 70
     1
  9
$TEXTSIZE
 40
3.5
  9
$TRACEWID
 40
1.0
  9
$TEXTSTYLE
  7
Standard
  9
$CLAYER
  8
0
  9
$CELTYPE
  6
ByLayer
  9
$CECOLOR
 62
   256
  9
$CELTSCALE
 40
1.0
  9
$DISPSILH
 70
     0
  9
$DIMSCALE
 40
1.0
  9
$DIMASZ
 40
3.5
  9
$DIMEXO
 40
1.0
  9
$DIMDLI
 40
3.75
  9
$DIMRND
 40
0.0
  9
$DIMDLE
 40
0.0
  9
$DIMEXE
 40
1.0
  9
$DIMTP
 40
0.0
  9
$DIMTM
 40
0.0
  9
$DIMTXT
 40
3.5
  9
$DIMCEN
 40
2.5
  9
$DIMTSZ
 40
0.0
  9
$DIMTOL
 70
     0
  9
$DIMLIM
 70
     0
  9
$DIMTIH
 70
     1
  9
$DIMTOH
 70
     1
  9
$DIMSE1
 70
     0
  9
$DIMSE2
 70
     0
  9
$DIMTAD
 70
     1
  9
$DIMZIN
 70
     0
  9
$DIMBLK
  1

  9
$DIMASO
 70
     1
  9
$DIMSHO
 70
     1
  9
$DIMPOST
  1

  9
$DIMAPOST
  1

  9
$DIMALT
 70
     0
  9
$DIMALTD
 70
     3
  9
$DIMALTF
 40
0.0393700787
  9
$DIMLFAC
 40
1.0
  9
$DIMTOFL
 70
     1
  9
$DIMTVP
 40
0.0
  9
$DIMTIX
 70
     0
  9
$DIMSOXD
 70
     0
  9
$DIMSAH
 70
     0
  9
$DIMBLK1
  1

  9
$DIMBLK2
  1

  9
$DIMSTYLE
  2
ISO-25
  9
$DIMCLRD
 70
     0
  9
$DIMCLRE
 70
     0
  9
$DIMCLRT
 70
     0
  9
$DIMTFAC
 40
1.0
  9
$DIMGAP
 40
1.524
  9
$DIMJUST
 70
     0
  9
$DIMSD1
 70
     0
  9
$DIMSD2
 70
     0
  9
$DIMTOLJ
 70
     0
  9
$DIMTZIN
 70
     0
  9
$DIMALTZ
 70
     0
  9
$DIMALTTZ
 70
     0
  9
$DIMUPT
 70
     0
  9
$DIMDEC
 70
     2
  9
$DIMTDEC
 70
     2
  9
$DIMALTU
 70
     2
  9
$DIMALTTD
 70
     3
  9
$DIMTXSTY
  7
Standard
  9
$DIMAUNIT
 70
     0
  9
$DIMADEC
 70
     2
  9
$DIMALTRND
 40
0.0
  9
$DIMAZIN
 70
     0
  9
$DIMDSEP
 70
    44
  9
$DIMATFIT
 70
     3
  9
$DIMFRAC
 70
     0
  9
$DIMLDRBLK
  1

  9
$DIMLUNIT
 70
     2
  9
$DIMLWD
 70
    -2
  9
$DIMLWE
 70
    -2
  9
$DIMTMOVE
 70
     0
  9
$LUNITS
 70
     2
  9
$LUPREC
 70
     2
  9
$SKETCHINC
 40
1.0
  9
$FILLETRAD
 40
10.0
  9
$AUNITS
 70
     0
  9
$AUPREC
 70
     2
  9
$MENU
  1
.
  9
$ELEVATION
 40
0.0
  9
$PELEVATION
 40
0.0
  9
$THICKNESS
 40
0.0
  9
$LIMCHECK
 70
     0
  9
$CHAMFERA
 40
0.0
  9
$CHAMFERB
 40
0.0
  9
$CHAMFERC
 40
0.0
  9
$CHAMFERD
 40
0.0
  9
$SKPOLY
 70
     0
  9
$TDCREATE
 40
2458985.683294213
  9
$TDUCREATE
 40
2458985.558294213
  9
$TDUPDATE
 40
2458985.683294653
  9
$TDUUPDATE
 40
2458985.558294653
  9
$TDINDWG
 40
0.0000000116
  9
$TDUSRTIMER
 40
0.0000000116
  9
$USRTIMER
 70
     1
  9
$ANGBASE
 50
0.0
  9
$ANGDIR
 70
     0
  9
$PDMODE
 70
     0
  9
$PDSIZE
 40
-1.0
  9
$PLINEWID
 40
0.0
  9
$SPLFRAME
 70
     0
  9
$SPLINETYPE
 70
     6
  9
$SPLINESEGS
 70
     8
  9
$HANDSEED
  5
CB
  9
$SURFTAB1
 70
     6
  9
$SURFTAB2
 70
     6
  9
$SURFTYPE
 70
     6
  9
$SURFU
 70
     6
  9
$SURFV
 70
     6
  9
$UCSBASE
  2

  9
$UCSNAME
  2

  9
$UCSORG
 10
0.0
 20
0.0
 30
0.0
  9
$UCSXDIR
 10
1.0
 20
0.0
 30
0.0
  9
$UCSYDIR
 10
0.0
 20
1.0
 30
0.0
  9
$UCSORTHOREF
  2

  9
$UCSORTHOVIEW
 70
     0
  9
$UCSORGTOP
 10
0.0
 20
0.0
 30
0.0
  9
$UCSORGBOTTOM
 10
0.0
 20
0.0
 30
0.0
  9
$UCSORGLEFT
 10
0.0
 20
0.0
 30
0.0
  9
$UCSORGRIGHT
 10
0.0
 20
0.0
 30
0.0
  9
$UCSORGFRONT
 10
0.0
 20
0.0
 30
0.0
  9
$UCSORGBACK
 10
0.0
 20
0.0
 30
0.0
  9
$PUCSBASE
  2

  9
$PUCSNAME
  2

  9
$PUCSORG
 10
0.0
 20
0.0
 30
0.0
  9
$PUCSXDIR
 10
1.0
 20
0.0
 30
0.0
  9
$PUCSYDIR
 10
0.0
 20
1.0
 30
0.0
  9
$PUCSORTHOREF
  2

  9
$PUCSORTHOVIEW
 70
     0
  9
$PUCSORGTOP
 10
0.0
 20
0.0
 30
0.0
  9
$PUCSORGBOTTOM
 10
0.0
 20
0.0
 30
0.0
  9
$PUCSORGLEFT
 10
0.0
 20
0.0
 30
0.0
  9
$PUCSORGRIGHT
 10
0.0
 20
0.0
 30
0.0
  9
$PUCSORGFRONT
 10
0.0
 20
0.0
 30
0.0
  9
$PUCSORGBACK
 10
0.0
 20
0.0
 30
0.0
  9
$USERI1
 70
     0
  9
$USERI2
 70
     0
  9
$USERI3
 70
     0
  9
$USERI4
 70
     0
  9
$USERI5
 70
     0
  9
$USERR1
 40
0.0
  9
$USERR2
 40
0.0
  9
$USERR3
 40
0.0
  9
$USERR4
 40
0.0
  9
$USERR5
 40
0.0
  9
$WORLDVIEW
 70
     1
  9
$SHADEDGE
 70
     3
  9
$SHADEDIF
 70
    70
  9
$TILEMODE
 70
     1
  9
$MAXACTVP
 70
    64
  9
$PINSBASE
 10
0.0
 20
0.0
 30
0.0
  9
$PLIMCHECK
 70
     0
  9
$PEXTMIN
 10
1.0000000000E+20
 20
1.0000000000E+20
 30
1.0000000000E+20
  9
$PEXTMAX
 10
-1.0000000000E+20
 20
-1.0000000000E+20
 30
-1.0000000000E+20
  9
$PLIMMIN
 10
0.0
 20
0.0
  9
$PLIMMAX
 10
420.0
 20
297.0
  9
$UNITMODE
 70
     0
  9
$VISRETAIN
 70
     1
  9
$PLINEGEN
 70
     0
  9
$PSLTSCALE
 70
     1
  9
$TREEDEPTH
 70
  3020
  9
$CMLSTYLE
  2
Standard
  9
$CMLJUST
 70
     0
  9
$CMLSCALE
 40
20.0
  9
$PROXYGRAPHICS
 70
     1
  9
$MEASUREMENT
 70
     1
  9
$CELWEIGHT
370
    -1
  9
$ENDCAPS
280
     0
  9
$JOINSTYLE
280
     0
  9
$LWDISPLAY
290
     1
  9
$INSUNITS
 70
     4
  9
$HYPERLINKBASE
  1

  9
$STYLESHEET
  1

  9
$XEDIT
290
     1
  9
$CEPSNTYPE
380
     0
  9
$PSTYLEMODE
290
     1
  9
$FINGERPRINTGUID
  2
{5c2614e1-661a-4060-bef6-ccafd6efaf86}
  9
$VERSIONGUID
  2
{FAEB1C32-E019-11D5-929B-00C0DF256EC4}
  9
$EXTNAMES
290
     1
  9
$PSVPSCALE
 40
0.0
  9
$OLESTARTUP
290
     0
  0
ENDSEC
  0
SECTION
  2
CLASSES
  0
CLASS
  1
ACDBDICTIONARYWDFLT
  2
AcDbDictionaryWithDefault
  3
ObjectDBX Classes
 90
        0
280
     0
281
     0
  0
CLASS
  1
VISUALSTYLE
  2
AcDbVisualStyle
  3
ObjectDBX Classes
 90
     4095
280
     0
281
     0
  0
CLASS
  1
MATERIAL
  2
AcDbMaterial
  3
ObjectDBX Classes
 90
     1153
280
     0
281
     0
  0
CLASS
  1
SCALE
  2
AcDbScale
  3
ObjectDBX Classes
 90
     1153
280
     0
281
     0
  0
CLASS
  1
TABLESTYLE
  2
AcDbTableStyle
  3
ObjectDBX Classes
 90
     4095
280
     0
281
     0
  0
CLASS
  1
MLEADERSTYLE
  2
AcDbMLeaderStyle
  3
ACDB_MLEADERSTYLE_CLASS
 90
     4095
280
     0
281
     0
  0
CLASS
  1
SUN
  2
AcDbSun
  3
SCENEOE
 90
     1153
280
     0
281
     0
  0
CLASS
  1
ACDBPLACEHOLDER
  2
AcDbPlaceHolder
  3
ObjectDBX Classes
 90
        0
280
     0
281
     0
  0
CLASS
  1
LAYOUT
  2
AcDbLayout
  3
ObjectDBX Classes
 90
        0
280
     0
281
     0
  0
ENDSEC
  0
SECTION
  2
TABLES
  0
TABLE
  2
VPORT
  5
8
330
0
100
AcDbSymbolTable
 70
     1
  0
VPORT
  5
29
330
8
100
AcDbSymbolTableRecord
100
AcDbViewportTableRecord
  2
*Active
 70
     0
 10
0.0
 20
0.0
 11
1.0
 21
1.0
 12
139.7
 22
107.95
 13
0.0
 23
0.0
 14
10.0
 24
10.0
 15
10.0
 25
10.0
 16
0.0
 26
0.0
 36
1.0
 17
0.0
 27
0.0
 37
0.0
 40
215.9
 41
1.2941176471
 42
50.0
 43
0.0
 44
0.0
 50
0.0
 51
0.0
 71
     0
 72
  2000
 73
     1
 74
     3
 75
     0
 76
     0
 77
     0
 78
     0
281
     0
 65
     1
110
0.0
120
0.0
130
0.0
111
1.0
121
0.0
131
0.0
112
0.0
122
1.0
132
0.0
 79
     0
146
0.0
  0
ENDTAB
  0
TABLE
  2
LTYPE
  5
5
330
0
100
AcDbSymbolTable
 70
     6
  0
LTYPE
  5
14
330
5
100
AcDbSymbolTableRecord
100
AcDbLinetypeTableRecord
  2
ByBlock
 70
     0
  3

 72
    65
 73
     0
 40
0.0
  0
LTYPE
  5
15
330
5
100
AcDbSymbolTableRecord
100
AcDbLinetypeTableRecord
  2
ByLayer
 70
     0
  3

 72
    65
 73
     0
 40
0.0
  0
LTYPE
  5
16
330
5
100
AcDbSymbolTableRecord
100
AcDbLinetypeTableRecord
  2
Continuous
 70
     0
  3
Solid line
 72
    65
 73
     0
 40
0.0
  0
LTYPE
  5
6E
330
5
100
AcDbSymbolTableRecord
100
AcDbLinetypeTableRecord
  2
HIDDEN
 70
     0
  3
Hidden __ __ __ __ __ __ __ __ __ __ __ __ __ __
 72
    65
 73
     2
 40
1.905
 49
1.27
 74
     0
 49
-0.635
 74
     0
  0
LTYPE
  5
6F
330
5
100
AcDbSymbolTableRecord
100
AcDbLinetypeTableRecord
  2
PHANTOM
 70
     0
  3
Phantom ______  __  __  ______  __  __  ______
 72
    65
 73
     6
 40
12.7
 49
6.35
 74
     0
 49
-1.27
 74
     0
 49
1.27
 74
     0
 49
-1.27
 74
     0
 49
1.27
 74
     0
 49
-1.27
 74
     0
  0
LTYPE
  5
70
330
5
100
AcDbSymbolTableRecord
100
AcDbLinetypeTableRecord
  2
CENTER
 70
     0
  3
Center ____ _ ____ _ ____ _ ____ _ ____ _ ____
 72
    65
 73
     4
 40
10.16
 49
6.35
 74
     0
 49
-1.27
 74
     0
 49
1.27
 74
     0
 49
-1.27
 74
     0
  0
LTYPE
  5
71
330
5
100
AcDbSymbolTableRecord
100
AcDbLinetypeTableRecord
  2
CENTERX2
 70
     0
  3
Center (2x) ________  __  ________  __  _____
 72
    65
 73
     4
 40
20.32
 49
12.7
 74
     0
 49
-2.54
 74
     0
 49
2.54
 74
     0
 49
-2.54
 74
     0
  0
LTYPE
  5
72
330
5
100
AcDbSymbolTableRecord
100
AcDbLinetypeTableRecord
  2
DOT2
 70
     0
  3
Dot (.5x) ........................................
 72
    65
 73
     2
 40
0.635
 49
0.0
 74
     0
 49
-0.635
 74
     0
  0
ENDTAB
  0
TABLE
  2
LAYER
  5
2
330
0
100
AcDbSymbolTable
 70
    17
  0
LAYER
  5
10
330
2
100
AcDbSymbolTableRecord
100
AcDbLayerTableRecord
  2
0
 70
     0
 62
     7
  6
Continuous
370
    -3
390
F
  0
LAYER
  5
73
330
2
100
AcDbSymbolTableRecord
100
AcDbLayerTableRecord
  2
FORMAT
 70
     0
 62
     7
  6
Continuous
370
    -3
390
F
  0
LAYER
  5
74
330
2
100
AcDbSymbolTableRecord
100
AcDbLayerTableRecord
  2
YARDIMCI_GEOMETRI
 70
     0
 62
    -6
  6
Continuous
290
     0
370
    -3
390
F
  0
LAYER
  5
75
330
2
100
AcDbSymbolTableRecord
100
AcDbLayerTableRecord
  2
SAYFA_CERCEVESI
 70
     0
 62
     7
  6
Continuous
370
    25
390
F
  0
LAYER
  5
76
330
2
100
AcDbSymbolTableRecord
100
AcDbLayerTableRecord
  2
ANTET
 70
     0
 62
     7
  6
Continuous
370
    -3
390
F
  0
LAYER
  5
77
330
2
100
AcDbSymbolTableRecord
100
AcDbLayerTableRecord
  2
OLCU
 70
     0
 62
   150
  6
Continuous
370
    -3
390
F
  0
LAYER
  5
78
330
2
100
AcDbSymbolTableRecord
100
AcDbLayerTableRecord
  2
METIN
 70
     0
 62
    96
  6
Continuous
370
    -3
390
F
  0
LAYER
  5
79
330
2
100
AcDbSymbolTableRecord
100
AcDbLayerTableRecord
  2
BALON
 70
     0
 62
     5
  6
Continuous
370
    -3
390
F
  0
LAYER
  5
7A
330
2
100
AcDbSymbolTableRecord
100
AcDbLayerTableRecord
  2
VURGU
 70
     0
 62
     7
  6
Continuous
370
    -3
390
F
  0
LAYER
  5
7B
330
2
100
AcDbSymbolTableRecord
100
AcDbLayerTableRecord
  2
SILIK
 70
     0
 62
     7
  6
Continuous
370
    -3
390
F
  0
LAYER
  5
7C
330
2
100
AcDbSymbolTableRecord
100
AcDbLayerTableRecord
  2
MODEL
 70
     0
 62
     7
  6
Continuous
370
    -3
390
F
  0
LAYER
  5
7D
330
2
100
AcDbSymbolTableRecord
100
AcDbLayerTableRecord
  2
DETAYLANDıRMA
 70
     0
 62
   190
  6
Continuous
370
    -3
390
F
  0
LAYER
  5
7E
330
2
100
AcDbSymbolTableRecord
100
AcDbLayerTableRecord
  2
TOLERANS
 70
     0
 62
   230
  6
Continuous
370
    -3
390
F
  0
LAYER
  5
7F
330
2
100
AcDbSymbolTableRecord
100
AcDbLayerTableRecord
  2
MERKEZ_CIZGILERI
 70
     0
 62
    30
  6
Continuous
370
    -3
390
F
  0
LAYER
  5
80
330
2
100
AcDbSymbolTableRecord
100
AcDbLayerTableRecord
  2
KESIT-DETAY_CIZGILERI
 70
     0
 62
     7
  6
Continuous
370
    -3
390
F
  0
LAYER
  5
81
330
2
100
AcDbSymbolTableRecord
100
AcDbLayerTableRecord
  2
\U+041E\U+0421\U+0415\U+0412\U+042B\U+0415
 70
     0
 62
     7
  6
Continuous
370
    -3
390
F
  0
LAYER
  5
82
330
2
100
AcDbSymbolTableRecord
100
AcDbLayerTableRecord
  2
\U+0412\U+041E\U+0414\U+042F\U+041D\U+042B\U+0415_\U+0417\U+041D\U+0410\U+041A\U+0418
 70
     0
 62
    11
  6
Continuous
370
    -3
390
F
  0
ENDTAB
  0
TABLE
  2
STYLE
  5
3
330
0
100
AcDbSymbolTable
 70
     1
  0
STYLE
  5
11
330
3
100
AcDbSymbolTableRecord
100
AcDbTextStyleTableRecord
  2
Standard
 70
     0
 40
0.0
 41
1.0
 50
0.0
 71
     0
 42
3.5
  3
txt
  4

  0
ENDTAB
  0
TABLE
  2
VIEW
  5
6
330
0
100
AcDbSymbolTable
 70
     0
  0
ENDTAB
  0
TABLE
  2
UCS
  5
7
330
0
100
AcDbSymbolTable
 70
     0
  0
ENDTAB
  0
TABLE
  2
APPID
  5
9
330
0
100
AcDbSymbolTable
 70
     1
  0
APPID
  5
12
330
9
100
AcDbSymbolTableRecord
100
AcDbRegAppTableRecord
  2
ACAD
 70
     0
  0
ENDTAB
  0
TABLE
  2
DIMSTYLE
  5
A
330
0
100
AcDbSymbolTable
 70
     1
100
AcDbDimStyleTable
  0
DIMSTYLE
105
27
330
A
100
AcDbSymbolTableRecord
100
AcDbDimStyleTableRecord
  2
ISO-25
 70
     0
 41
2.5
 42
0.625
 43
3.75
 44
1.25
 73
     0
 74
     0
 77
     1
 78
     8
140
2.5
141
2.5
143
0.0393700787
147
0.625
171
     3
172
     1
178
     0
271
     2
272
     2
274
     3
278
    44
283
     0
284
     8
340
11
  0
ENDTAB
  0
TABLE
  2
BLOCK_RECORD
  5
1
330
0
100
AcDbSymbolTable
 70
     3
  0
BLOCK_RECORD
  5
1F
330
1
100
AcDbSymbolTableRecord
100
AcDbBlockTableRecord
  2
*Model_Space
340
22
  0
BLOCK_RECORD
  5
1B
330
1
100
AcDbSymbolTableRecord
100
AcDbBlockTableRecord
  2
*Paper_Space
340
1E
  0
BLOCK_RECORD
  5
23
330
1
100
AcDbSymbolTableRecord
100
AcDbBlockTableRecord
  2
*Paper_Space0
340
26
  0
BLOCK_RECORD
  5
88
330
1
100
AcDbSymbolTableRecord
100
AcDbBlockTableRecord
  2
SW_CENTERMARKSYMBOL_0
340
0
102
{BLKREFS
331
93
102
}
  0
BLOCK_RECORD
  5
B2
330
1
100
AcDbSymbolTableRecord
100
AcDbBlockTableRecord
  2
SW_CENTERMARKSYMBOL_1
340
0
102
{BLKREFS
331
BD
102
}
  0
ENDTAB
  0
ENDSEC
  0
SECTION
  2
BLOCKS
  0
BLOCK
  5
20
330
1F
100
AcDbEntity
  8
0
100
AcDbBlockBegin
  2
*Model_Space
 70
     0
 10
0.0
 20
0.0
 30
0.0
  3
*Model_Space
  1

  0
ENDBLK
  5
21
330
1F
100
AcDbEntity
  8
0
100
AcDbBlockEnd
  0
BLOCK
  5
1C
330
1B
100
AcDbEntity
 67
     1
  8
0
100
AcDbBlockBegin
  2
*Paper_Space
 70
     0
 10
0.0
 20
0.0
 30
0.0
  3
*Paper_Space
  1

  0
ENDBLK
  5
1D
330
1B
100
AcDbEntity
 67
     1
  8
0
100
AcDbBlockEnd
  0
BLOCK
  5
24
330
23
100
AcDbEntity
  8
0
100
AcDbBlockBegin
  2
*Paper_Space0
 70
     0
 10
0.0
 20
0.0
 30
0.0
  3
*Paper_Space0
  1

  0
ENDBLK
  5
25
330
23
100
AcDbEntity
  8
0
100
AcDbBlockEnd
  0
BLOCK
  5
89
330
88
100
AcDbEntity
  8
0
100
AcDbBlockBegin
  2
SW_CENTERMARKSYMBOL_0
 70
     0
 10
0.0
 20
0.0
 30
0.0
  3
SW_CENTERMARKSYMBOL_0
  1

  0
LINE
  5
8B
330
88
100
AcDbEntity
  8
FORMAT
 62
     0
100
AcDbLine
 10
0.0
 20
0.0
 30
0.0
 11
0.0
 21
2.5
 31
0.0
  0
LINE
  5
8C
330
88
100
AcDbEntity
  8
FORMAT
 62
     0
100
AcDbLine
 10
0.0
 20
0.0
 30
0.0
 11
-2.5
 21
0.0
 31
0.0
  0
LINE
  5
8D
330
88
100
AcDbEntity
  8
FORMAT
 62
     0
100
AcDbLine
 10
0.0
 20
0.0
 30
0.0
 11
0.0
 21
-2.5
 31
0.0
  0
LINE
  5
8E
330
88
100
AcDbEntity
  8
FORMAT
 62
     0
100
AcDbLine
 10
0.0
 20
0.0
 30
0.0
 11
2.5
 21
0.0
 31
0.0
  0
LINE
  5
8F
330
88
100
AcDbEntity
  8
FORMAT
 62
     0
100
AcDbLine
 10
0.0
 20
5.0
 30
0.0
 11
0.0
 21
127.5
 31
0.0
  0
LINE
  5
90
330
88
100
AcDbEntity
  8
FORMAT
 62
     0
100
AcDbLine
 10
-5.0
 20
0.0
 30
0.0
 11
-127.5
 21
0.0
 31
0.0
  0
LINE
  5
91
330
88
100
AcDbEntity
  8
FORMAT
 62
     0
100
AcDbLine
 10
0.0
 20
-5.0
 30
0.0
 11
0.0
 21
-127.5
 31
0.0
  0
LINE
  5
92
330
88
100
AcDbEntity
  8
FORMAT
 62
     0
100
AcDbLine
 10
5.0
 20
0.0
 30
0.0
 11
127.5
 21
0.0
 31
0.0
  0
ENDBLK
  5
8A
330
88
100
AcDbEntity
  8
0
100
AcDbBlockEnd
  0
BLOCK
  5
B3
330
B2
100
AcDbEntity
  8
0
100
AcDbBlockBegin
  2
SW_CENTERMARKSYMBOL_1
 70
     0
 10
0.0
 20
0.0
 30
0.0
  3
SW_CENTERMARKSYMBOL_1
  1

  0
LINE
  5
B5
330
B2
100
AcDbEntity
  8
FORMAT
 62
     0
100
AcDbLine
 10
0.0
 20
0.0
 30
0.0
 11
0.0
 21
2.5
 31
0.0
  0
LINE
  5
B6
330
B2
100
AcDbEntity
  8
FORMAT
 62
     0
100
AcDbLine
 10
0.0
 20
0.0
 30
0.0
 11
-2.5
 21
0.0
 31
0.0
  0
LINE
  5
B7
330
B2
100
AcDbEntity
  8
FORMAT
 62
     0
100
AcDbLine
 10
0.0
 20
0.0
 30
0.0
 11
0.0
 21
-2.5
 31
0.0
  0
LINE
  5
B8
330
B2
100
AcDbEntity
  8
FORMAT
 62
     0
100
AcDbLine
 10
0.0
 20
0.0
 30
0.0
 11
2.5
 21
0.0
 31
0.0
  0
LINE
  5
B9
330
B2
100
AcDbEntity
  8
FORMAT
 62
     0
100
AcDbLine
 10
0.0
 20
5.0
 30
0.0
 11
0.0
 21
65.0
 31
0.0
  0
LINE
  5
BA
330
B2
100
AcDbEntity
  8
FORMAT
 62
     0
100
AcDbLine
 10
-5.0
 20
0.0
 30
0.0
 11
-65.0
 21
0.0
 31
0.0
  0
LINE
  5
BB
330
B2
100
AcDbEntity
  8
FORMAT
 62
     0
100
AcDbLine
 10
0.0
 20
-5.0
 30
0.0
 11
0.0
 21
-65.0
 31
0.0
  0
LINE
  5
BC
330
B2
100
AcDbEntity
  8
FORMAT
 62
     0
100
AcDbLine
 10
5.0
 20
0.0
 30
0.0
 11
65.0
 21
0.0
 31
0.0
  0
ENDBLK
  5
B4
330
B2
100
AcDbEntity
  8
0
100
AcDbBlockEnd
  0
ENDSEC
  0
SECTION
  2
ENTITIES
  0
LINE
  5
83
330
1F
100
AcDbEntity
  8
0
  6
Continuous
 62
     7
370
    25
100
AcDbLine
 10
220.7137646152
 20
46.8862139987
 30
0.0
 11
364.4002566223
 21
46.8862139987
 31
0.0
  0
LINE
  5
84
330
1F
100
AcDbEntity
  8
0
  6
Continuous
 62
     7
370
    25
100
AcDbLine
 10
364.4002566223
 20
171.8862139987
 30
0.0
 11
220.7098998319
 21
171.8862139987
 31
0.0
  0
CIRCLE
  5
85
330
1F
100
AcDbEntity
  8
0
  6
Continuous
 62
     7
370
    25
100
AcDbCircle
 10
112.4002566223
 20
109.3862139987
 30
0.0
 40
102.3
  0
CIRCLE
  5
86
330
1F
100
AcDbEntity
  8
0
  6
Continuous
 62
     7
370
    25
100
AcDbCircle
 10
112.4002566223
 20
109.3862139987
 30
0.0
 40
125.0
  0
LINE
  5
87
330
1F
100
AcDbEntity
  8
0
  6
Continuous
 62
     7
370
    25
100
AcDbLine
 10
364.4002566223
 20
171.8862139987
 30
0.0
 11
364.4002566223
 21
46.8862139987
 31
0.0
  0
INSERT
  5
93
330
1F
100
AcDbEntity
  8
FORMAT
100
AcDbBlockReference
  2
SW_CENTERMARKSYMBOL_0
 10
112.4002566223
 20
109.3862139987
 30
0.0
  0
LINE
  5
94
330
1F
100
AcDbEntity
  8
0
  6
Continuous
 62
     7
370
    25
100
AcDbLine
 10
-12.5997433777
 20
-130.9061589255
 30
0.0
 11
-12.5997433777
 21
-720.9061589255
 31
0.0
  0
LINE
  5
95
330
1F
100
AcDbEntity
  8
0
  6
Continuous
 62
     7
370
    25
100
AcDbLine
 10
237.4002566223
 20
-363.4426241721
 30
0.0
 11
237.4002566223
 21
-130.9061589255
 31
0.0
  0
LINE
  5
96
330
1F
100
AcDbEntity
  8
0
  6
Continuous
 62
     7
370
    25
100
AcDbLine
 10
237.4002566223
 20
-720.9061589255
 30
0.0
 11
237.4002566223
 21
-488.4061589255
 31
0.0
  0
LINE
  5
97
330
1F
100
AcDbEntity
  8
0
  6
Continuous
 62
     7
370
    25
100
AcDbLine
 10
237.4002566223
 20
-488.4061589255
 30
0.0
 11
364.4002566223
 21
-488.4061589255
 31
0.0
  0
LINE
  5
98
330
1F
100
AcDbEntity
  8
0
  6
Continuous
 62
     7
370
    25
100
AcDbLine
 10
364.4002566223
 20
-363.4061589255
 30
0.0
 11
237.3819305893
 21
-363.4061589255
 31
0.0
  0
SPLINE
  5
99
330
1F
100
AcDbEntity
  8
0
  6
Continuous
 62
     7
370
    25
100
AcDbSpline
210
0.0
220
0.0
230
1.0
 70
     8
 71
     3
 72
    46
 73
    42
 74
     0
 42
0.000000001
 43
0.00000001
 40
0.0
 40
0.0
 40
0.0
 40
0.0
 40
0.0054307155454822
 40
0.0316297140163387
 40
0.0550655176304113
 40
0.0785020953642399
 40
0.1025838606725282
 40
0.1266668772712914
 40
0.1508174470402601
 40
0.1749692430440489
 40
0.1997030851340872
 40
0.2244378359920259
 40
0.2509484789831449
 40
0.2774593475034419
 40
0.3046695825815104
 40
0.3318786929482563
 40
0.3595516994650069
 40
0.387222094062738
 40
0.4158730892817578
 40
0.444520592401961
 40
0.4695103220327265
 40
0.494499024372118
 40
0.5203787855741977
 40
0.546259357563167
 40
0.5689706546501186
 40
0.5916832413568115
 40
0.614977250534605
 40
0.6382727780986108
 40
0.6625492541143805
 40
0.6868269757241138
 40
0.711664670913878
 40
0.7365028488041165
 40
0.763676262155367
 40
0.7908490904858335
 40
0.8187987847869789
 40
0.8467466697063882
 40
0.8739922528121042
 40
0.9012357380308708
 40
0.9294509679442383
 40
0.9576642541137683
 40
1.0
 40
1.0
 40
1.0
 40
1.0
 10
237.3819224734436
 20
-363.4426241721071
 30
0.0
 10
237.3874724507689
 20
-363.4314916689524
 30
0.0
 10
237.4197967723298
 20
-363.3666534559915
 30
0.0
 10
237.2722236955795
 20
-363.6623419343715
 30
0.0
 10
236.9508105056008
 20
-364.3083559238739
 30
0.0
 10
236.4581265685364
 20
-365.3097008063173
 30
0.0
 10
235.8055236398744
 20
-366.6546909146402
 30
0.0
 10
234.9996367681993
 20
-368.3497810075108
 30
0.0
 10
234.0631736370202
 20
-370.3689323973603
 30
0.0
 10
233.0091258385341
 20
-372.7139038924913
 30
0.0
 10
231.8562821051038
 20
-375.3770245992065
 30
0.0
 10
230.5989307342454
 20
-378.4187038582152
 30
0.0
 10
229.2674997011288
 20
-381.8269608845883
 30
0.0
 10
227.8804282476795
 20
-385.6379219280425
 30
0.0
 10
226.5026735080933
 20
-389.7658682738997
 30
0.0
 10
225.1658385065591
 20
-394.2226487067683
 30
0.0
 10
223.9241605177995
 20
-398.9581353512278
 30
0.0
 10
222.8067011266042
 20
-404.0080052985034
 30
0.0
 10
221.8725169298388
 20
-409.3253011504165
 30
0.0
 10
221.195829467089
 20
-414.6372625269909
 30
0.0
 10
220.7878490075329
 20
-419.8147959069754
 30
0.0
 10
220.6180313693006
 20
-424.8618076510149
 30
0.0
 10
220.6901513201379
 20
-429.9781193757394
 30
0.0
 10
220.9915965848836
 20
-434.9074066184653
 30
0.0
 10
221.4819433447646
 20
-439.5551910594997
 30
0.0
 10
222.1176449326959
 20
-443.9437019956616
 30
0.0
 10
222.9094021641164
 20
-448.2508652134716
 30
0.0
 10
223.8496424403547
 20
-452.5110697297681
 30
0.0
 10
224.9142810098798
 20
-456.6604635802948
 30
0.0
 10
226.0882133914717
 20
-460.7047596166725
 30
0.0
 10
227.3308838609709
 20
-464.5648644878069
 30
0.0
 10
228.6543253818679
 20
-468.3351949940589
 30
0.0
 10
230.0204277230669
 20
-471.942348578224
 30
0.0
 10
231.4068643530355
 20
-475.3709565996447
 30
0.0
 10
232.7347165537824
 20
-478.4799556975537
 30
0.0
 10
233.9569786361633
 20
-481.2138113034941
 30
0.0
 10
235.0279768683992
 20
-483.5254952250491
 30
0.0
 10
235.9383691477724
 20
-485.4343689340451
 30
0.0
 10
236.6523081970973
 20
-486.9004513421421
 30
0.0
 10
237.2565381855078
 20
-488.1195921165121
 30
0.0
 10
237.3463571743047
 20
-488.2986863341886
 30
0.0
 10
237.400256622315
 20
-488.4061589254958
 30
0.0
  0
LINE
  5
9A
330
1F
100
AcDbEntity
  8
0
  6
Continuous
 62
     7
370
    25
100
AcDbLine
 10
237.4002566223
 20
-720.9061589255
 30
0.0
 11
-12.5997433777
 21
-720.9061589255
 31
0.0
  0
LINE
  5
9B
330
1F
100
AcDbEntity
  8
0
  6
Continuous
 62
     7
370
    25
100
AcDbLine
 10
237.4002566223
 20
-130.9061589255
 30
0.0
 11
-12.5997433777
 21
-130.9061589255
 31
0.0
  0
LINE
  5
9C
330
1F
100
AcDbEntity
  8
0
  6
Continuous
 62
     7
370
    25
100
AcDbLine
 10
364.4002566223
 20
-363.4061589255
 30
0.0
 11
364.4002566223
 21
-488.4061589255
 31
0.0
  0
LINE
  5
9D
330
1F
100
AcDbEntity
  8
0
  6
Continuous
 62
     7
370
    25
100
AcDbLine
 10
237.4002566223
 20
697.2924148568
 30
0.0
 11
237.4002566223
 21
929.7924148568
 31
0.0
  0
LINE
  5
9E
330
1F
100
AcDbEntity
  8
0
  6
Continuous
 62
     7
370
    25
100
AcDbLine
 10
237.4002566223
 20
339.7924148568
 30
0.0
 11
237.4002566223
 21
572.327664187
 31
0.0
  0
LINE
  5
9F
330
1F
100
AcDbEntity
  8
0
  6
Continuous
 62
     7
370
    25
100
AcDbLine
 10
-12.5997433777
 20
929.7924148568
 30
0.0
 11
-12.5997433777
 21
339.7924148568
 31
0.0
  0
LINE
  5
A0
330
1F
100
AcDbEntity
  8
0
  6
Continuous
 62
     7
370
    25
100
AcDbLine
 10
237.3826518187
 20
572.2924148568
 30
0.0
 11
364.4002566223
 21
572.2924148568
 31
0.0
  0
LINE
  5
A1
330
1F
100
AcDbEntity
  8
0
  6
Continuous
 62
     7
370
    25
100
AcDbLine
 10
364.4002566223
 20
697.2924148568
 30
0.0
 11
237.4002566223
 21
697.2924148568
 31
0.0
  0
SPLINE
  5
A2
330
1F
100
AcDbEntity
  8
0
  6
Continuous
 62
     7
370
    25
100
AcDbSpline
210
0.0
220
0.0
230
1.0
 70
     8
 71
     3
 72
    46
 73
    42
 74
     0
 42
0.000000001
 43
0.00000001
 40
0.0
 40
0.0
 40
0.0
 40
0.0
 40
0.0242354128339053
 40
0.0486538107677958
 40
0.073640127570542
 40
0.0988170521870965
 40
0.1230498382727884
 40
0.1474409680993778
 40
0.1723068335612858
 40
0.1973269349132917
 40
0.223051576165687
 40
0.2489334268629117
 40
0.2752991259110482
 40
0.3018300792998024
 40
0.329436334143195
 40
0.3572445750147891
 40
0.3857286831531937
 40
0.4144682113694413
 40
0.4403248812915849
 40
0.4664022904400891
 40
0.4932116723355315
 40
0.5202865542959177
 40
0.5431622301166997
 40
0.5661976325560726
 40
0.589715741000944
 40
0.6133908140592581
 40
0.6368761530241286
 40
0.6604984726432074
 40
0.6845267626836704
 40
0.708686455804929
 40
0.7351134248183709
 40
0.761706734802622
 40
0.7888247732104384
 40
0.8161279164007764
 40
0.8436562075833685
 40
0.8713974607534003
 40
0.8998505879567629
 40
0.9285687908669062
 40
0.9537997343007972
 40
0.979232174349149
 40
1.0
 40
1.0
 40
1.0
 40
1.0
 10
237.400256622315
 20
697.292414856777
 30
0.0
 10
237.3821513307141
 20
697.2562449471877
 30
0.0
 10
237.3458040467835
 20
697.1836320336506
 30
0.0
 10
237.0510543944263
 20
696.5922250638679
 30
0.0
 10
236.5797518475426
 20
695.63753204091
 30
0.0
 10
235.9291444440203
 20
694.3005670298877
 30
0.0
 10
235.1283283061048
 20
692.6222282613193
 30
0.0
 10
234.1955846350425
 20
690.6188540388163
 30
0.0
 10
233.135791393555
 20
688.2715498351328
 30
0.0
 10
231.9603257229197
 20
685.5675000667443
 30
0.0
 10
230.6959257618353
 20
682.5209802240358
 30
0.0
 10
229.3631583895958
 20
679.1227502455314
 30
0.0
 10
228.0009092643355
 20
675.4023579011358
 30
0.0
 10
226.6271034703871
 20
671.32207796436
 30
0.0
 10
225.2850117247407
 20
666.8977322150529
 30
0.0
 10
224.0119218873718
 20
662.1066668557846
 30
0.0
 10
222.8695254740634
 20
657.008493517918
 30
0.0
 10
221.9439780749597
 20
651.8191718088602
 30
0.0
 10
221.2593882216567
 20
646.6262028841112
 30
0.0
 10
220.8158217335514
 20
641.4517548316197
 30
0.0
 10
220.6169555769015
 20
636.1334255666682
 30
0.0
 10
220.681062911507
 20
631.014890389721
 30
0.0
 10
220.9639159461355
 20
626.1825693613449
 30
0.0
 10
221.4179049923671
 20
621.646444837493
 30
0.0
 10
222.0519064400992
 20
617.1504643397008
 30
0.0
 10
222.848083879347
 20
612.747165604617
 30
0.0
 10
223.7801212177997
 20
608.4823736626581
 30
0.0
 10
224.8268030923764
 20
604.3613658867621
 30
0.0
 10
225.9691249110006
 20
600.3868674019192
 30
0.0
 10
227.2176835931897
 20
596.4682174479094
 30
0.0
 10
228.545747764274
 20
592.6596574990341
 30
0.0
 10
229.9291923539602
 20
588.9902678833367
 30
0.0
 10
231.2973686646705
 20
585.5918034900161
 30
0.0
 10
232.6149152309615
 20
582.493975209049
 30
0.0
 10
233.8405201642073
 20
579.7403425180709
 30
0.0
 10
234.9455300987235
 20
577.3481696881537
 30
0.0
 10
235.8913628227842
 20
575.3609180500989
 30
0.0
 10
236.6101672082352
 20
573.8850710657621
 30
0.0
 10
237.0916253391383
 20
572.9108587220303
 30
0.0
 10
237.3627122835635
 20
572.3674347049547
 30
0.0
 10
237.3764627021474
 20
572.3399976306783
 30
0.0
 10
237.382643755253
 20
572.3276641869996
 30
0.0
  0
LINE
  5
A3
330
1F
100
AcDbEntity
  8
0
  6
Continuous
 62
     7
370
    25
100
AcDbLine
 10
-12.5997433777
 20
929.7924148568
 30
0.0
 11
237.4002566223
 21
929.7924148568
 31
0.0
  0
LINE
  5
A4
330
1F
100
AcDbEntity
  8
0
  6
Continuous
 62
     7
370
    25
100
AcDbLine
 10
-12.5997433777
 20
339.7924148568
 30
0.0
 11
237.4002566223
 21
339.7924148568
 31
0.0
  0
LINE
  5
A5
330
1F
100
AcDbEntity
  8
0
  6
Continuous
 62
     7
370
    25
100
AcDbLine
 10
364.4002566223
 20
697.2924148568
 30
0.0
 11
364.4002566223
 21
572.2924148568
 31
0.0
  0
LINE
  5
A6
330
1F
100
AcDbEntity
  8
0
  6
Continuous
 62
     7
370
    25
100
AcDbLine
 10
503.9416141106
 20
-15.6137860013
 30
0.0
 11
1093.9416141106
 21
-15.6137860013
 31
0.0
  0
LINE
  5
A7
330
1F
100
AcDbEntity
  8
0
  6
Continuous
 62
     7
370
    25
100
AcDbLine
 10
1093.9416141106
 20
234.3862139987
 30
0.0
 11
503.9416141106
 21
234.3862139987
 31
0.0
  0
LINE
  5
A8
330
1F
100
AcDbEntity
  8
0
  6
Continuous
 62
     7
370
    25
100
AcDbLine
 10
1093.9416141106
 20
234.3862139987
 30
0.0
 11
1093.9416141106
 21
-15.6137860013
 31
0.0
  0
LINE
  5
A9
330
1F
100
AcDbEntity
  8
0
  6
Continuous
 62
     7
370
    25
100
AcDbLine
 10
503.9416141106
 20
234.3862139987
 30
0.0
 11
503.9416141106
 21
-15.6137860013
 31
0.0
  0
LINE
  5
AA
330
1F
100
AcDbEntity
  8
0
  6
Continuous
 62
     7
370
    25
100
AcDbLine
 10
-135.9949423762
 20
234.3862139987
 30
0.0
 11
-725.9949423762
 21
234.3862139987
 31
0.0
  0
LINE
  5
AB
330
1F
100
AcDbEntity
  8
0
  6
Continuous
 62
     7
370
    25
100
AcDbLine
 10
-725.9949423762
 20
-15.6137860013
 30
0.0
 11
-135.9949423762
 21
-15.6137860013
 31
0.0
  0
CIRCLE
  5
AC
330
1F
100
AcDbEntity
  8
0
  6
Continuous
 62
     7
370
    25
100
AcDbCircle
 10
-430.9949423762
 20
109.3862139987
 30
0.0
 40
51.10000000000002
  0
CIRCLE
  5
AD
330
1F
100
AcDbEntity
  8
0
  6
Continuous
 62
     7
370
    25
100
AcDbCircle
 10
-430.9949423762
 20
109.3862139987
 30
0.0
 40
62.5
  0
LINE
  5
AE
330
1F
100
AcDbEntity
  8
0
  6
Continuous
 62
     7
370
    25
100
AcDbLine
 10
-725.9949423762
 20
109.3862139987
 30
0.0
 11
-725.9949423762
 21
234.3862139987
 31
0.0
  0
LINE
  5
AF
330
1F
100
AcDbEntity
  8
0
  6
Continuous
 62
     7
370
    25
100
AcDbLine
 10
-725.9949423762
 20
-15.6137860013
 30
0.0
 11
-725.9949423762
 21
109.3862139987
 31
0.0
  0
LINE
  5
B0
330
1F
100
AcDbEntity
  8
0
  6
Continuous
 62
     7
370
    25
100
AcDbLine
 10
-135.9949423762
 20
109.3862139987
 30
0.0
 11
-135.9949423762
 21
234.3862139987
 31
0.0
  0
LINE
  5
B1
330
1F
100
AcDbEntity
  8
0
  6
Continuous
 62
     7
370
    25
100
AcDbLine
 10
-135.9949423762
 20
-15.6137860013
 30
0.0
 11
-135.9949423762
 21
109.3862139987
 31
0.0
  0
INSERT
  5
BD
330
1F
100
AcDbEntity
  8
FORMAT
100
AcDbBlockReference
  2
SW_CENTERMARKSYMBOL_1
 10
-430.9949423762
 20
109.3862139987
 30
0.0
  0
LINE
  5
BE
330
1F
100
AcDbEntity
  8
0
  6
Continuous
 62
     7
370
    25
100
AcDbLine
 10
1020.9891864422
 20
-380.6940791555
 30
0.0
 11
937.4130040715
 21
-332.4465760499
 31
0.0
  0
LINE
  5
BF
330
1F
100
AcDbEntity
  8
0
  6
Continuous
 62
     7
370
    25
100
AcDbLine
 10
812.4028448254
 20
-260.2797472313
 30
0.0
 11
603.7961855421
 21
-139.8536861678
 31
0.0
  0
LINE
  5
C0
330
1F
100
AcDbEntity
  8
0
  6
Continuous
 62
     7
370
    25
100
AcDbLine
 10
478.8063439626
 20
-356.3659017629
 30
0.0
 11
895.9993448626
 21
-597.2062947506
 31
0.0
  0
LINE
  5
C1
330
1F
100
AcDbEntity
  8
0
  6
Continuous
 62
     7
370
    25
100
AcDbLine
 10
863.8226939964
 20
-374.9293577848
 30
0.0
 11
959.3361344563
 21
-319.7906222683
 31
0.0
  0
LINE
  5
C2
330
1F
100
AcDbEntity
  8
0
  6
Continuous
 62
     7
370
    25
100
AcDbLine
 10
896.8412136665
 20
-211.5345144708
 30
0.0
 11
801.3276249314
 21
-266.6733355847
 31
0.0
  0
SPLINE
  5
C3
330
1F
100
AcDbEntity
  8
0
  6
Continuous
 62
     7
370
    25
100
AcDbSpline
210
0.0
220
0.0
230
1.0
 70
     8
 71
     3
 72
    37
 73
    33
 74
     0
 42
0.000000001
 43
0.00000001
 40
0.0
 40
0.0
 40
0.0
 40
0.0
 40
0.032303460199189
 40
0.0652285857080639
 40
0.0981548662226902
 40
0.1317132705239797
 40
0.1640132295219743
 40
0.196839658409778
 40
0.2296678755550114
 40
0.2630172496194579
 40
0.2973057071972306
 40
0.3321259538214617
 40
0.3669465316661569
 40
0.402309725299944
 40
0.4391061917226082
 40
0.4761718859759481
 40
0.5141384458965237
 40
0.5524454560654701
 40
0.5869098950844337
 40
0.6221570466634351
 40
0.6574023497867688
 40
0.6934905475739959
 40
0.7239816099078866
 40
0.7550062240116506
 40
0.7860326981092276
 40
0.8175892796081079
 40
0.8488929639198023
 40
0.8806489537679768
 40
0.9124065183705959
 40
0.9446090515197471
 40
0.9798336440431568
 40
1.0
 40
1.0
 40
1.0
 40
1.0
 10
794.0919390265277
 20
-291.9917299758278
 30
0.0
 10
794.1047109790005
 20
-293.3320121936045
 30
0.0
 10
794.1305006743269
 20
-296.0383697471351
 30
0.0
 10
794.3412898030891
 20
-300.3771093525224
 30
0.0
 10
794.6837459545189
 20
-304.924458253977
 30
0.0
 10
795.1672772621408
 20
-309.5824855106208
 30
0.0
 10
795.7897277138258
 20
-314.3284883603976
 30
0.0
 10
796.5475679499136
 20
-319.097404247293
 30
0.0
 10
797.4585808140608
 20
-323.9408490089199
 30
0.0
 10
798.536107186602
 20
-328.8465938331559
 30
0.0
 10
799.8001901123714
 20
-333.8062781802464
 30
0.0
 10
801.2616566188883
 20
-338.7579661876737
 30
0.0
 10
802.9299265670429
 20
-343.6462430326476
 30
0.0
 10
804.8379786820406
 20
-348.4735465628468
 30
0.0
 10
807.0174498454784
 20
-353.203801139384
 30
0.0
 10
809.50504395602
 20
-357.7951604292946
 30
0.0
 10
812.3021726686311
 20
-362.1418441415284
 30
0.0
 10
815.3172161862233
 20
-366.0328548652819
 30
0.0
 10
818.5192645431941
 20
-369.4481749488517
 30
0.0
 10
821.8673985090181
 20
-372.3717253416507
 30
0.0
 10
825.4875415362065
 20
-374.9031534356463
 30
0.0
 10
829.1350521168116
 20
-376.866144427136
 30
0.0
 10
832.7637778497306
 20
-378.3266952137212
 30
0.0
 10
836.2931497303643
 20
-379.3366144463895
 30
0.0
 10
839.9203923406717
 20
-379.9801982956297
 30
0.0
 10
843.584507985956
 20
-380.2472433100269
 30
0.0
 10
847.2698403545161
 20
-380.1466612732584
 30
0.0
 10
850.9232629445369
 20
-379.6857677879249
 30
0.0
 10
854.5428705111444
 20
-378.8764887569816
 30
0.0
 10
858.179442612563
 20
-377.6749183991756
 30
0.0
 10
861.297454816469
 20
-376.3585838626828
 30
0.0
 10
863.1293726927355
 20
-375.2771001529991
 30
0.0
 10
863.7963247668577
 20
-374.8833609943568
 30
0.0
  0
SPLINE
  5
C4
330
1F
100
AcDbEntity
  8
0
  6
Continuous
 62
     7
370
    25
100
AcDbSpline
210
0.0
220
0.0
230
1.0
 70
     8
 71
     3
 72
    16
 73
    12
 74
     0
 42
0.000000001
 43
0.00000001
 40
0.0
 40
0.0
 40
0.0
 40
0.0
 40
0.053352206459816
 40
0.1636838914287611
 40
0.2740106936658835
 40
0.3863433259423499
 40
0.4950003660130254
 40
0.6045283750326926
 40
0.7169658163894258
 40
0.8304799774566757
 40
1.0
 40
1.0
 40
1.0
 40
1.0
 10
801.3549306022713
 20
-266.7206778986872
 30
0.0
 10
801.0831683750026
 20
-266.8650994449797
 30
0.0
 10
800.249405315246
 20
-267.3081829137228
 30
0.0
 10
799.076852668312
 20
-268.478810481791
 30
0.0
 10
797.8074693547306
 20
-270.234405411761
 30
0.0
 10
796.746041635778
 20
-272.42327417804
 30
0.0
 10
795.8663978809132
 20
-275.0188211907986
 30
0.0
 10
795.1615824191059
 20
-278.0235088520547
 30
0.0
 10
794.6282504244124
 20
-281.4906265368361
 30
0.0
 10
794.1931869847441
 20
-286.0162166884461
 30
0.0
 10
794.1298649941265
 20
-289.7533922620017
 30
0.0
 10
794.0919390265277
 20
-291.9917299758277
 30
0.0
  0
LWPOLYLINE
  5
C5
330
1F
100
AcDbEntity
  8
0
  6
Continuous
 62
     7
370
    25
100
AcDbPolyline
 90
      119
 70
   128
 43
0.0
 10
629.6896124007
 20
-197.0842869764
 10
629.5643392134
 20
-191.7243459161
 10
629.1888747521
 20
-186.5242355343
 10
628.5642833116
 20
-181.498696109
 10
627.6923353642
 20
-176.6619730776
 10
626.575502541
 20
-172.027776657
 10
625.2169506261
 20
-167.6092429806
 10
623.6205305824
 20
-163.418896862
 10
621.7907676361
 20
-159.4686162926
 10
619.7328484489
 20
-155.7695987719
 10
617.4526064164
 20
-152.332329567
 10
614.9565051324
 20
-149.1665519907
 10
612.2516200671
 20
-146.2812397836
 10
609.3456185112
 20
-143.6845716767
 10
606.2467378418
 20
-141.3839082078
 10
602.9637621728
 20
-139.3857708575
 10
599.5059974555
 20
-137.6958235631
 10
595.8832450996
 20
-136.318856664
 10
592.1057741902
 20
-135.2587733223
 10
588.1842923792
 20
-134.5185784595
 10
584.1299155326
 20
-134.1003702383
 10
579.9541362222
 20
-134.0053341154
 10
575.6687911481
 20
-134.233739481
 10
571.2860275866
 20
-134.7849388953
 10
566.8182689571
 20
-135.6573699236
 10
562.2781796068
 20
-136.8485595654
 10
557.6786289123
 20
-138.3551312642
 10
553.0326547997
 20
-140.172814479
 10
548.3534267875
 20
-142.296456789
 10
543.6542086558
 20
-144.7200384996
 10
538.9483208489
 20
-147.4366897049
 10
534.2491027172
 20
-150.4387097621
 10
529.569874705
 20
-153.717589119
 10
524.9239005924
 20
-157.264033436
 10
520.3243498979
 20
-161.0679899312
 10
515.7842605476
 20
-165.1186758768
 10
511.3165019181
 20
-169.4046091633
 10
506.9337383565
 20
-173.9136408471
 10
502.6483932825
 20
-178.6329895881
 10
498.4726139721
 20
-183.5492778796
 10
494.4182371255
 20
-188.6485699681
 10
490.4967553144
 20
-193.9164113563
 10
486.7192844051
 20
-199.3378697755
 10
483.0965320492
 20
-204.8975775126
 10
479.6387673318
 20
-210.5797749722
 10
476.3557916629
 20
-216.3683553481
 10
473.2569109934
 20
-222.2469102803
 10
470.3509094375
 20
-228.1987763663
 10
467.6460243723
 20
-234.2070823949
 10
465.1499230883
 20
-240.2547971699
 10
462.8696810558
 20
-246.3247777868
 10
460.8117618686
 20
-252.399818226
 10
458.9819989222
 20
-258.4626981253
 10
457.3855788786
 20
-264.4962315929
 10
456.0270269636
 20
-270.4833159228
 10
454.9101941405
 20
-276.4069800739
 10
454.038246193
 20
-282.2504327765
 10
453.4136547525
 20
-287.9971101292
 10
453.0381902913
 20
-293.6307225506
 10
452.912917104
 20
-299.1353009543
 10
453.0381902913
 20
-304.4952420146
 10
453.4136547525
 20
-309.6953523964
 10
454.038246193
 20
-314.7208918217
 10
454.9101941405
 20
-319.5576148531
 10
456.0270269636
 20
-324.1918112737
 10
457.3855788786
 20
-328.6103449501
 10
458.9819989222
 20
-332.8006910687
 10
460.8117618686
 20
-336.7509716381
 10
462.8696810558
 20
-340.4499891588
 10
465.1499230883
 20
-343.8872583638
 10
467.6460243723
 20
-347.05303594
 10
470.3509094375
 20
-349.9383481471
 10
473.2569109934
 20
-352.535016254
 10
476.3557916629
 20
-354.8356797229
 10
479.6387673318
 20
-356.8338170732
 10
483.0965320492
 20
-358.5237643676
 10
486.7192844051
 20
-359.9007312668
 10
490.4967553144
 20
-360.9608146084
 10
494.4182371255
 20
-361.7010094713
 10
498.4726139721
 20
-362.1192176924
 10
502.6483932825
 20
-362.2142538153
 10
506.9337383565
 20
-361.9858484497
 10
511.3165019181
 20
-361.4346490355
 10
515.7842605476
 20
-360.5622180072
 10
520.3243498979
 20
-359.3710283653
 10
524.9239005924
 20
-357.8644566665
 10
529.569874705
 20
-356.0467734517
 10
534.2491027172
 20
-353.9231311417
 10
538.9483208489
 20
-351.4995494311
 10
543.6542086558
 20
-348.7828982258
 10
548.3534267875
 20
-345.7808781686
 10
553.0326547997
 20
-342.5019988117
 10
557.6786289123
 20
-338.9555544947
 10
562.2781796068
 20
-335.1515979995
 10
566.8182689571
 20
-331.1009120539
 10
571.2860275866
 20
-326.8149787674
 10
575.6687911481
 20
-322.3059470836
 10
579.9541362222
 20
-317.5865983426
 10
584.1299155326
 20
-312.6703100511
 10
588.1842923792
 20
-307.5710179626
 10
592.1057741902
 20
-302.3031765744
 10
595.8832450996
 20
-296.8817181552
 10
599.5059974555
 20
-291.3220104181
 10
602.9637621728
 20
-285.6398129585
 10
606.2467378418
 20
-279.8512325826
 10
609.3456185112
 20
-273.9726776504
 10
612.2516200671
 20
-268.0208115644
 10
614.9565051324
 20
-262.0125055358
 10
617.4526064164
 20
-255.9647907608
 10
619.7328484489
 20
-249.8948101439
 10
621.7907676361
 20
-243.8197697047
 10
623.6205305825
 20
-237.7568898054
 10
625.2169506261
 20
-231.7233563378
 10
626.575502541
 20
-225.7362720079
 10
627.6923353642
 20
-219.8126078568
 10
628.5642833116
 20
-213.9691551542
 10
629.1888747521
 20
-208.2224778015
 10
629.5643392134
 20
-202.5888653801
 10
629.6896124007
 20
-197.0842869764
  0
LWPOLYLINE
  5
C6
330
1F
100
AcDbEntity
  8
0
  6
Continuous
 62
     7
370
    25
100
AcDbPolyline
 90
       16
 70
   128
 43
0.0
 10
1046.8826133007
 20
-437.9246799641
 10
1046.7573401135
 20
-432.5647389038
 10
1046.3818756522
 20
-427.364628522
 10
1045.7572842117
 20
-422.3390890967
 10
1044.8853362643
 20
-417.5023660653
 10
1043.7685034411
 20
-412.8681696447
 10
1042.4099515262
 20
-408.4496359683
 10
1040.8135314825
 20
-404.2592898497
 10
1038.9837685361
 20
-400.3090092803
 10
1036.925849349
 20
-396.6099917596
 10
1034.6456073165
 20
-393.1727225547
 10
1032.1495060324
 20
-390.0069449784
 10
1029.4446209672
 20
-387.1216327713
 10
1026.5386194113
 20
-384.5249646644
 10
1023.4397387419
 20
-382.2243011955
 10
1020.9891864422
 20
-380.6940791555
  0
LWPOLYLINE
  5
C7
330
1F
100
AcDbEntity
  8
0
  6
Continuous
 62
     7
370
    25
100
AcDbPolyline
 90
       46
 70
   128
 43
0.0
 10
895.9993448626
 20
-597.2062947506
 10
896.8317682319
 20
-597.6742100609
 10
900.2895329492
 20
-599.3641573553
 10
903.9122853051
 20
-600.7411242545
 10
907.6897562145
 20
-601.8012075961
 10
911.6112380256
 20
-602.541402459
 10
915.6656148721
 20
-602.9596106801
 10
919.8413941825
 20
-603.054646803
 10
924.1267392566
 20
-602.8262414374
 10
928.5095028181
 20
-602.2750420232
 10
932.9772614477
 20
-601.4026109949
 10
937.517350798
 20
-600.211421353
 10
942.1169014925
 20
-598.7048496542
 10
946.762875605
 20
-596.8871664394
 10
951.4421036173
 20
-594.7635241294
 10
956.141321749
 20
-592.3399424188
 10
960.8472095558
 20
-589.6232912135
 10
965.5464276875
 20
-586.6212711563
 10
970.2256556998
 20
-583.3423917994
 10
974.8716298123
 20
-579.7959474824
 10
979.4711805068
 20
-575.9919909872
 10
984.0112698571
 20
-571.9413050416
 10
988.4790284867
 20
-567.6553717551
 10
992.8617920482
 20
-563.1463400713
 10
997.1471371223
 20
-558.4269913303
 10
1001.3229164327
 20
-553.5107030388
 10
1005.3772932792
 20
-548.4114109503
 10
1009.2987750903
 20
-543.1435695621
 10
1013.0762459997
 20
-537.7221111429
 10
1016.6989983556
 20
-532.1624034058
 10
1020.1567630729
 20
-526.4802059462
 10
1023.4397387419
 20
-520.6916255703
 10
1026.5386194113
 20
-514.8130706381
 10
1029.4446209672
 20
-508.8612045521
 10
1032.1495060324
 20
-502.8528985235
 10
1034.6456073165
 20
-496.8051837485
 10
1036.925849349
 20
-490.7352031316
 10
1038.9837685361
 20
-484.6601626924
 10
1040.8135314825
 20
-478.5972827931
 10
1042.4099515262
 20
-472.5637493255
 10
1043.7685034411
 20
-466.5766649956
 10
1044.8853362643
 20
-460.6530008445
 10
1045.7572842117
 20
-454.8095481419
 10
1046.3818756522
 20
-449.0628707892
 10
1046.7573401135
 20
-443.4292583678
 10
1046.8826133007
 20
-437.9246799641
  0
LWPOLYLINE
  5
C8
330
1F
100
AcDbEntity
  8
0
  6
Continuous
 62
     7
370
    25
100
AcDbPolyline
 90
      108
 70
   128
 43
0.0
 10
613.6382884677
 20
-206.3505190456
 10
613.5136081146
 20
-201.5201941452
 10
613.1399968543
 20
-196.850473247
 10
612.5187426023
 20
-192.3574538462
 10
611.6519869506
 20
-188.0566243116
 10
610.5427177855
 20
-183.9628104934
 10
609.1947589876
 20
-180.0901246161
 10
607.6127572502
 20
-176.4519166301
 10
605.8021660609
 20
-173.060728192
 10
603.7692269028
 20
-169.9282494309
 10
601.5209477381
 20
-167.06527865
 10
599.0650788511
 20
-164.4816851027
 10
596.4100861303
 20
-162.1863749712
 10
593.5651218859
 20
-160.1872606649
 10
590.5399932988
 20
-158.4912335452
 10
587.3451286141
 20
-157.1041401687
 10
583.9915411922
 20
-156.0307621337
 10
580.4907915435
 20
-155.2747995966
 10
576.8549474775
 20
-154.838858517
 10
573.0965425018
 20
-154.724441674
 10
569.2285326169
 20
-154.9319434863
 10
565.2642516542
 20
-155.4606486519
 10
561.2173653114
 20
-156.3087346148
 10
557.1018240442
 20
-157.473277847
 10
552.9318149759
 20
-158.9502639266
 10
548.7217129915
 20
-160.7346013766
 10
544.4860311848
 20
-162.8201392163
 10
540.2393708284
 20
-165.1996881646
 10
535.9963710404
 20
-167.8650454235
 10
531.77165832
 20
-170.8070229541
 10
527.5797961271
 20
-174.0154791506
 10
523.4352346791
 20
-177.4793537997
 10
519.352261138
 20
-181.186706208
 10
515.3449503593
 20
-185.1247563637
 10
511.4271163734
 20
-189.2799289921
 10
507.6122647658
 20
-193.6379003523
 10
503.9135461202
 20
-198.1836476143
 10
500.3437106861
 20
-202.9015006455
 10
496.9150644256
 20
-207.7751960292
 10
493.6394265927
 20
-212.7879331278
 10
490.5280889897
 20
-217.922431998
 10
487.5917770418
 20
-223.1609929586
 10
484.8406128246
 20
-228.4855576047
 10
482.284080171
 20
-233.8777710589
 10
479.9309919788
 20
-239.3190452443
 10
477.7894598304
 20
-244.7906229618
 10
475.8668660307
 20
-250.2736425492
 10
474.169838159
 20
-255.7492029024
 10
472.7042262217
 20
-261.1984286303
 10
471.4750824869
 20
-266.6025351231
 10
470.4866440677
 20
-271.9428933062
 10
469.742318316
 20
-277.2010938585
 10
469.244671077
 20
-282.3590106735
 10
468.9954178437
 20
-287.3988633434
 10
468.9954178437
 20
-292.3032784519
 10
469.244671077
 20
-297.0553494642
 10
469.742318316
 20
-301.6386950071
 10
470.4866440677
 20
-306.037515339
 10
471.4750824869
 20
-310.2366468149
 10
472.7042262217
 20
-314.2216141588
 10
474.169838159
 20
-317.9786803626
 10
475.8668660307
 20
-321.4948940409
 10
477.7894598304
 20
-324.7581340766
 10
479.9309919788
 20
-327.7571514054
 10
482.284080171
 20
-330.4816077932
 10
484.8406128246
 20
-332.9221114745
 10
487.5917770418
 20
-335.0702495275
 10
490.5280889897
 20
-336.9186168753
 10
493.6394265927
 20
-338.4608418128
 10
496.9150644256
 20
-339.6916079711
 10
500.3437106861
 20
-340.6066726443
 10
503.9135461202
 20
-341.2028814149
 10
507.6122647658
 20
-341.4781790277
 10
511.4271163734
 20
-341.431616475
 10
515.3449503593
 20
-341.0633542673
 10
519.352261138
 20
-340.3746618809
 10
523.4352346791
 20
-339.367913381
 10
527.5797961271
 20
-338.0465792384
 10
531.77165832
 20
-336.4152143654
 10
535.9963710404
 20
-334.4794424149
 10
540.2393708284
 20
-332.2459363937
 10
544.4860311848
 20
-329.7223956598
 10
548.7217129915
 20
-326.9175193809
 10
552.9318149759
 20
-323.8409765465
 10
557.1018240442
 20
-320.5033726372
 10
561.2173653114
 20
-316.916213065
 10
565.2642516542
 20
-313.0918635122
 10
569.2285326169
 20
-309.0435073038
 10
573.0965425018
 20
-304.7850999625
 10
576.8549474775
 20
-300.3313211004
 10
580.4907915435
 20
-295.6975238161
 10
583.9915411922
 20
-290.8996817685
 10
587.3451286141
 20
-285.9543341133
 10
590.5399932988
 20
-280.8785284883
 10
593.5651218859
 20
-275.689762247
 10
596.4100861303
 20
-270.4059221415
 10
599.0650788511
 20
-265.0452226633
 10
601.5209477381
 20
-259.6261432539
 10
603.7692269028
 20
-254.1673646029
 10
605.8021660609
 20
-248.6877042509
 10
607.6127572502
 20
-243.2060517225
 10
609.1947589876
 20
-237.7413034095
 10
610.5427177855
 20
-232.3122974313
 10
611.6519869506
 20
-226.9377486964
 10
612.5187426023
 20
-221.6361843875
 10
613.1399968543
 20
-216.4258800951
 10
613.5136081146
 20
-211.3247968176
 10
613.6382884677
 20
-206.3505190456
  0
LWPOLYLINE
  5
C9
330
1F
100
AcDbEntity
  8
0
  6
Continuous
 62
     7
370
    25
100
AcDbPolyline
 90
       76
 70
   128
 43
0.0
 10
964.22183058
 20
-286.5217956266
 10
964.0951065143
 20
-282.9571616626
 10
963.7158231956
 20
-279.2712185527
 10
963.0866410238
 20
-275.4898205396
 10
962.2119732597
 20
-271.6394914134
 10
961.0979550693
 20
-267.7472384665
 10
959.7524004897
 20
-263.8403630567
 10
958.1847476197
 20
-259.9462691079
 10
956.4059924176
 20
-256.0922708912
 10
954.4286115732
 20
-252.3054014351
 10
952.2664749924
 20
-248.612222908
 10
949.9347485097
 20
-245.0386403036
 10
947.4497875112
 20
-241.6097197363
 10
944.8290222128
 20
-238.3495126202
 10
942.0908354001
 20
-235.2808869659
 10
939.254433486
 20
-232.4253669773
 10
936.3397117923
 20
-229.8029820756
 10
933.3671149971
 20
-227.4321264067
 10
930.3574937314
 20
-225.3294298196
 10
927.3319583259
 20
-223.5096412202
 10
924.3117307375
 20
-221.9855251178
 10
921.3179956928
 20
-220.767772092
 10
918.3717520921
 20
-219.8649238052
 10
915.4936657175
 20
-219.2833130894
 10
912.7039242769
 20
-219.027019526
 10
910.0220958021
 20
-219.0978408301
 10
907.4669913929
 20
-219.4952802412
 10
905.0565332711
 20
-220.2165500073
 10
902.8076290683
 20
-221.2565909394
 10
900.7360532317
 20
-222.6081078974
 10
898.8563363774
 20
-224.2616209611
 10
897.1816633686
 20
-226.2055319244
 10
895.7237808331
 20
-228.4262056484
 10
894.4929147694
 20
-230.9080657027
 10
893.4976988187
 20
-233.6337036221
 10
892.7451137057
 20
-236.5840010149
 10
892.2404382743
 20
-239.7382636649
 10
891.9872124601
 20
-243.0743666857
 10
891.9872124601
 20
-246.5689097118
 10
892.2404382743
 20
-250.1973810346
 10
892.7451137057
 20
-253.9343295348
 10
893.4976988187
 20
-257.7535432037
 10
894.4929147694
 20
-261.6282330016
 10
895.7237808331
 20
-265.5312207633
 10
897.1816633686
 20
-269.4351298342
 10
898.8563363774
 20
-273.3125770969
 10
900.7360532317
 20
-277.136365045
 10
902.8076290683
 20
-280.8796725533
 10
905.0565332711
 20
-284.5162430092
 10
907.4669913929
 20
-288.0205684839
 10
910.0220958021
 20
-291.368068652
 10
912.7039242769
 20
-294.5352632049
 10
915.4936657175
 20
-297.4999365486
 10
918.3717520921
 20
-300.2412936296
 10
921.3179956928
 20
-302.7401057978
 10
924.3117307375
 20
-304.978845681
 10
927.3319583259
 20
-306.9418101276
 10
930.3574937314
 20
-308.6152303523
 10
933.3671149971
 20
-309.9873685147
 10
936.3397117923
 20
-311.0486000514
 10
939.254433486
 20
-311.7914811857
 10
942.0908354001
 20
-312.2108011402
 10
944.8290222128
 20
-312.3036186866
 10
947.4497875112
 20
-312.0692827766
 10
949.9347485097
 20
-311.5094371082
 10
952.2664749924
 20
-310.6280085965
 10
954.4286115732
 20
-309.4311798293
 10
956.4059924176
 20
-307.9273457003
 10
958.1847476197
 20
-306.1270545257
 10
959.7524004897
 20
-304.0429340543
 10
961.0979550693
 20
-301.6896028939
 10
962.2119732597
 20
-299.0835679716
 10
963.0866410238
 20
-296.2431087502
 10
963.7158231956
 20
-293.18814901
 10
964.0951065143
 20
-289.9401170988
 10
964.22183058
 20
-286.5217956266
  0
LWPOLYLINE
  5
CA
330
1F
100
AcDbEntity
  8
0
  6
Continuous
 62
     7
370
    25
100
AcDbPolyline
 90
       84
 70
   128
 43
0.0
 10
972.2828478855
 20
-291.175321864
 10
972.1562777728
 20
-287.2426321453
 10
971.7772924167
 20
-283.1863337756
 10
971.1480626111
 20
-279.0296608645
 10
970.2721925274
 20
-274.7964224582
 10
969.1546990699
 20
-270.5108661628
 10
967.8019831402
 20
-266.1975392567
 10
966.2217929724
 20
-261.8811480858
 10
964.4231797528
 20
-257.5864165479
 10
962.416445775
 20
-253.3379444762
 10
960.2130854296
 20
-249.160066734
 10
957.825719365
 20
-245.0767138268
 10
955.2680221979
 20
-241.1112748302
 10
952.554644186
 20
-237.2864634196
 10
949.7011273128
 20
-233.6241877684
 10
946.7238162647
 20
-230.14542506
 10
943.6397648095
 20
-226.870101332
 10
940.4666381149
 20
-223.8169773422
 10
937.2226115631
 20
-221.0035411082
 10
933.9262666445
 20
-218.4459077382
 10
930.5964845242
 20
-216.1587271243
 10
927.2523378926
 20
-214.1551000301
 10
923.9129817189
 20
-212.44650305
 10
920.5975435328
 20
-211.0427228729
 10
917.325013864
 20
-209.9518002244
 10
914.114137466
 20
-209.1799838107
 10
910.9833059481
 20
-208.7316945264
 10
907.9504524298
 20
-208.6095001318
 10
905.0329488212
 20
-208.8141005454
 10
902.2475063189
 20
-209.3443238346
 10
899.6100796852
 20
-210.1971329283
 10
897.1357758612
 20
-211.3676430133
 10
894.838767435
 20
-212.8491495138
 10
892.7322114628
 20
-214.6331664948
 10
890.8281741065
 20
-216.7094752685
 10
889.1375615197
 20
-219.0661829264
 10
887.6700573782
 20
-221.6897904603
 10
886.4340674127
 20
-224.565270084
 10
885.4366712619
 20
-227.6761513105
 10
884.6835819206
 20
-231.0046152938
 10
884.1791130164
 20
-234.5315968939
 10
883.9261541014
 20
-238.2368938793
 10
883.9261541014
 20
-242.0992826445
 10
884.1791130164
 20
-246.0966397765
 10
884.6835819206
 20
-250.2060687756
 10
885.4366712619
 20
-254.4040312047
 10
886.4340674127
 20
-258.6664815151
 10
887.6700573782
 20
-262.9690047774
 10
889.1375615197
 20
-267.286956528
 10
890.8281741065
 20
-271.5956039304
 10
892.7322114628
 20
-275.8702674424
 10
894.838767435
 20
-280.0864621785
 10
897.1357758612
 20
-284.220038157
 10
899.6100796852
 20
-288.2473186292
 10
902.2475063189
 20
-292.1452356971
 10
905.0329488212
 20
-295.8914624449
 10
907.9504524298
 20
-299.4645408249
 10
910.9833059481
 20
-302.8440045677
 10
914.114137466
 20
-306.0104964112
 10
917.325013864
 20
-308.9458789766
 10
920.5975435328
 20
-311.6333386587
 10
923.9129817189
 20
-314.0574819316
 10
927.2523378926
 20
-316.2044235222
 10
930.5964845242
 20
-318.0618659436
 10
933.9262666445
 20
-319.6191699337
 10
937.2226115631
 20
-320.8674153963
 10
940.4666381149
 20
-321.7994524944
 10
943.6397648095
 20
-322.409942604
 10
946.7238162647
 20
-322.695388893
 10
949.7011273128
 20
-322.6541563509
 10
952.554644186
 20
-322.2864811539
 10
955.2680221979
 20
-321.5944693123
 10
957.825719365
 20
-320.5820846073
 10
960.2130854296
 20
-319.2551258868
 10
962.416445775
 20
-317.6211938501
 10
964.4231797528
 20
-315.6896475119
 10
966.2217929724
 20
-313.4715505949
 10
967.8019831402
 20
-310.9796081572
 10
969.1546990699
 20
-308.2280938196
 10
970.2721925274
 20
-305.2327680068
 10
971.1480626111
 20
-302.0107876739
 10
971.7772924167
 20
-298.5806080326
 10
972.1562777728
 20
-294.9618768411
 10
972.2828478855
 20
-291.175321864
  0
ENDSEC
  0
SECTION
  2
OBJECTS
  0
DICTIONARY
  5
C
330
0
100
AcDbDictionary
281
     1
  3
ACAD_GROUP
350
D
  3
ACAD_LAYOUT
350
1A
  3
ACAD_MLINESTYLE
350
17
  3
ACAD_PLOTSETTINGS
350
19
  3
ACAD_PLOTSTYLENAME
350
E
  3
ACAD_SCALELIST
350
47
  0
DICTIONARY
  5
D
102
{ACAD_REACTORS
330
C
102
}
330
C
100
AcDbDictionary
281
     1
  0
DICTIONARY
  5
1A
102
{ACAD_REACTORS
330
C
102
}
330
C
100
AcDbDictionary
281
     1
  3
Layout1
350
1E
  3
Layout2
350
26
  3
Model
350
22
  0
DICTIONARY
  5
17
102
{ACAD_REACTORS
330
C
102
}
330
C
100
AcDbDictionary
281
     1
  3
Standard
350
18
  0
DICTIONARY
  5
19
102
{ACAD_REACTORS
330
C
102
}
330
C
100
AcDbDictionary
281
     1
  0
ACDBDICTIONARYWDFLT
  5
E
102
{ACAD_REACTORS
330
C
102
}
330
C
100
AcDbDictionary
281
     1
  3
Normal
350
F
100
AcDbDictionaryWithDefault
340
F
  0
DICTIONARY
  5
47
102
{ACAD_REACTORS
330
C
102
}
330
C
100
AcDbDictionary
281
     1
  3
A0
350
48
  3
A1
350
49
  3
A2
350
4A
  3
A3
350
4B
  3
A4
350
4C
  3
A5
350
4D
  3
A6
350
4E
  3
A7
350
4F
  3
A8
350
50
  3
A9
350
51
  3
B0
350
52
  3
B1
350
53
  3
B2
350
54
  3
B3
350
55
  3
B4
350
56
  3
B5
350
57
  3
B6
350
58
  3
B7
350
59
  3
B8
350
5A
  3
B9
350
5B
  3
C0
350
5C
  3
C1
350
5D
  3
C2
350
5E
  3
C3
350
5F
  3
C4
350
60
  3
C5
350
61
  3
C6
350
62
  3
C7
350
63
  3
C8
350
64
  3
C9
350
65
  3
D0
350
66
  3
D1
350
67
  3
D2
350
68
  0
LAYOUT
  5
1E
102
{ACAD_REACTORS
330
1A
102
}
330
1A
100
AcDbPlotSettings
  1

  2
none_device
  4

  6

 40
0.0
 41
0.0
 42
0.0
 43
0.0
 44
0.0
 45
0.0
 46
0.0
 47
0.0
 48
0.0
 49
0.0
140
0.0
141
0.0
142
1.0
143
1.0
 70
   688
 72
     1
 73
     0
 74
     5
  7

 75
    16
147
1.0
148
0.0
149
0.0
100
AcDbLayout
  1
Layout1
 70
     1
 71
     1
 10
0.0
 20
0.0
 11
420.0
 21
297.0
 12
0.0
 22
0.0
 32
0.0
 14
1.0000000000E+20
 24
1.0000000000E+20
 34
1.0000000000E+20
 15
-1.0000000000E+20
 25
-1.0000000000E+20
 35
-1.0000000000E+20
146
0.0
 13
0.0
 23
0.0
 33
0.0
 16
1.0
 26
0.0
 36
0.0
 17
0.0
 27
1.0
 37
0.0
 76
     0
330
1B
  0
LAYOUT
  5
26
102
{ACAD_REACTORS
330
1A
102
}
330
1A
100
AcDbPlotSettings
  1

  2
none_device
  4

  6

 40
0.0
 41
0.0
 42
0.0
 43
0.0
 44
0.0
 45
0.0
 46
0.0
 47
0.0
 48
0.0
 49
0.0
140
0.0
141
0.0
142
1.0
143
1.0
 70
   688
 72
     1
 73
     0
 74
     5
  7

 75
    16
147
1.0
148
0.0
149
0.0
100
AcDbLayout
  1
Layout2
 70
     1
 71
     2
 10
0.0
 20
0.0
 11
0.0
 21
0.0
 12
0.0
 22
0.0
 32
0.0
 14
0.0
 24
0.0
 34
0.0
 15
0.0
 25
0.0
 35
0.0
146
0.0
 13
0.0
 23
0.0
 33
0.0
 16
1.0
 26
0.0
 36
0.0
 17
0.0
 27
1.0
 37
0.0
 76
     0
330
23
  0
LAYOUT
  5
22
102
{ACAD_REACTORS
330
1A
102
}
330
1A
100
AcDbPlotSettings
  1

  2
none_device
  4
Letter_(8.50_x_11.00_Inches)
  6

 40
6.35
 41
6.35
 42
6.35000508
 43
6.35000508
 44
215.9
 45
279.4
 46
0.0
 47
0.0
 48
0.0
 49
0.0
140
0.0
141
0.0
142
1.0
143
1.0
 70
  1712
 72
     1
 73
     0
 74
     0
  7

 75
     0
147
1.0
148
0.0
149
0.0
100
AcDbLayout
  1
Model
 70
     1
 71
     0
 10
0.0
 20
0.0
 11
279.4
 21
215.9
 12
0.0
 22
0.0
 32
0.0
 14
0.0
 24
0.0
 34
0.0
 15
279.4
 25
215.9
 35
0.0
146
0.0
 13
0.0
 23
0.0
 33
0.0
 16
1.0
 26
0.0
 36
0.0
 17
0.0
 27
1.0
 37
0.0
 76
     0
330
1F
331
29
  0
MLINESTYLE
  5
18
102
{ACAD_REACTORS
330
17
102
}
330
17
100
AcDbMlineStyle
  2
Standard
 70
     0
  3

 62
   256
 51
90.0
 52
90.0
 71
     2
 49
0.5
 62
   256
  6
BYLAYER
 49
-0.5
 62
   256
  6
BYLAYER
  0
ACDBPLACEHOLDER
  5
F
102
{ACAD_REACTORS
330
E
102
}
330
E
  0
SCALE
  5
48
102
{ACAD_REACTORS
330
47
102
}
330
47
100
AcDbScale
 70
     0
300
1:1
140
1.0
141
1.0
290
     1
  0
SCALE
  5
49
102
{ACAD_REACTORS
330
47
102
}
330
47
100
AcDbScale
 70
     0
300
1:2
140
1.0
141
2.0
290
     0
  0
SCALE
  5
4A
102
{ACAD_REACTORS
330
47
102
}
330
47
100
AcDbScale
 70
     0
300
1:4
140
1.0
141
4.0
290
     0
  0
SCALE
  5
4B
102
{ACAD_REACTORS
330
47
102
}
330
47
100
AcDbScale
 70
     0
300
1:5
140
1.0
141
5.0
290
     0
  0
SCALE
  5
4C
102
{ACAD_REACTORS
330
47
102
}
330
47
100
AcDbScale
 70
     0
300
1:8
140
1.0
141
8.0
290
     0
  0
SCALE
  5
4D
102
{ACAD_REACTORS
330
47
102
}
330
47
100
AcDbScale
 70
     0
300
1:10
140
1.0
141
10.0
290
     0
  0
SCALE
  5
4E
102
{ACAD_REACTORS
330
47
102
}
330
47
100
AcDbScale
 70
     0
300
1:16
140
1.0
141
16.0
290
     0
  0
SCALE
  5
4F
102
{ACAD_REACTORS
330
47
102
}
330
47
100
AcDbScale
 70
     0
300
1:20
140
1.0
141
20.0
290
     0
  0
SCALE
  5
50
102
{ACAD_REACTORS
330
47
102
}
330
47
100
AcDbScale
 70
     0
300
1:30
140
1.0
141
30.0
290
     0
  0
SCALE
  5
51
102
{ACAD_REACTORS
330
47
102
}
330
47
100
AcDbScale
 70
     0
300
1:40
140
1.0
141
40.0
290
     0
  0
SCALE
  5
52
102
{ACAD_REACTORS
330
47
102
}
330
47
100
AcDbScale
 70
     0
300
1:50
140
1.0
141
50.0
290
     0
  0
SCALE
  5
53
102
{ACAD_REACTORS
330
47
102
}
330
47
100
AcDbScale
 70
     0
300
1:100
140
1.0
141
100.0
290
     0
  0
SCALE
  5
54
102
{ACAD_REACTORS
330
47
102
}
330
47
100
AcDbScale
 70
     0
300
2:1
140
2.0
141
1.0
290
     0
  0
SCALE
  5
55
102
{ACAD_REACTORS
330
47
102
}
330
47
100
AcDbScale
 70
     0
300
4:1
140
4.0
141
1.0
290
     0
  0
SCALE
  5
56
102
{ACAD_REACTORS
330
47
102
}
330
47
100
AcDbScale
 70
     0
300
8:1
140
8.0
141
1.0
290
     0
  0
SCALE
  5
57
102
{ACAD_REACTORS
330
47
102
}
330
47
100
AcDbScale
 70
     0
300
10:1
140
10.0
141
1.0
290
     0
  0
SCALE
  5
58
102
{ACAD_REACTORS
330
47
102
}
330
47
100
AcDbScale
 70
     0
300
100:1
140
100.0
141
1.0
290
     0
  0
SCALE
  5
59
102
{ACAD_REACTORS
330
47
102
}
330
47
100
AcDbScale
 70
     0
300
1/128" = 1'-0"
140
0.0078125
141
12.0
290
     0
  0
SCALE
  5
5A
102
{ACAD_REACTORS
330
47
102
}
330
47
100
AcDbScale
 70
     0
300
1/64" = 1'-0"
140
0.015625
141
12.0
290
     0
  0
SCALE
  5
5B
102
{ACAD_REACTORS
330
47
102
}
330
47
100
AcDbScale
 70
     0
300
1/32" = 1'-0"
140
0.03125
141
12.0
290
     0
  0
SCALE
  5
5C
102
{ACAD_REACTORS
330
47
102
}
330
47
100
AcDbScale
 70
     0
300
1/16" = 1'-0"
140
0.0625
141
12.0
290
     0
  0
SCALE
  5
5D
102
{ACAD_REACTORS
330
47
102
}
330
47
100
AcDbScale
 70
     0
300
3/32" = 1'-0"
140
0.09375
141
12.0
290
     0
  0
SCALE
  5
5E
102
{ACAD_REACTORS
330
47
102
}
330
47
100
AcDbScale
 70
     0
300
1/8" = 1'-0"
140
0.125
141
12.0
290
     0
  0
SCALE
  5
5F
102
{ACAD_REACTORS
330
47
102
}
330
47
100
AcDbScale
 70
     0
300
3/16" = 1'-0"
140
0.1875
141
12.0
290
     0
  0
SCALE
  5
60
102
{ACAD_REACTORS
330
47
102
}
330
47
100
AcDbScale
 70
     0
300
1/4" = 1'-0"
140
0.25
141
12.0
290
     0
  0
SCALE
  5
61
102
{ACAD_REACTORS
330
47
102
}
330
47
100
AcDbScale
 70
     0
300
3/8" = 1'-0"
140
0.375
141
12.0
290
     0
  0
SCALE
  5
62
102
{ACAD_REACTORS
330
47
102
}
330
47
100
AcDbScale
 70
     0
300
1/2" = 1'-0"
140
0.5
141
12.0
290
     0
  0
SCALE
  5
63
102
{ACAD_REACTORS
330
47
102
}
330
47
100
AcDbScale
 70
     0
300
3/4" = 1'-0"
140
0.75
141
12.0
290
     0
  0
SCALE
  5
64
102
{ACAD_REACTORS
330
47
102
}
330
47
100
AcDbScale
 70
     0
300
1" = 1'-0"
140
1.0
141
12.0
290
     0
  0
SCALE
  5
65
102
{ACAD_REACTORS
330
47
102
}
330
47
100
AcDbScale
 70
     0
300
1-1/2" = 1'-0"
140
1.5
141
12.0
290
     0
  0
SCALE
  5
66
102
{ACAD_REACTORS
330
47
102
}
330
47
100
AcDbScale
 70
     0
300
3" = 1'-0"
140
3.0
141
12.0
290
     0
  0
SCALE
  5
67
102
{ACAD_REACTORS
330
47
102
}
330
47
100
AcDbScale
 70
     0
300
6" = 1'-0"
140
6.0
141
12.0
290
     0
  0
SCALE
  5
68
102
{ACAD_REACTORS
330
47
102
}
330
47
100
AcDbScale
 70
     0
300
1'-0" = 1'-0"
140
12.0
141
12.0
290
     0
  0
ENDSEC
  0
EOF
